  0
SECTION
  2
HEADER
  9
$ACADVER
  1
AC1014
  9
$ACADMAINTVER
 70
     9
  9
$DWGCODEPAGE
  3
ANSI_1252
  9
$INSBASE
 10
0.0
 20
0.0
 30
0.0
  9
$EXTMIN
 10
1.000000000000000E+20
 20
1.000000000000000E+20
 30
1.000000000000000E+20
  9
$EXTMAX
 10
-1.000000000000000E+20
 20
-1.000000000000000E+20
 30
-1.000000000000000E+20
  9
$LIMMIN
 10
0.0
 20
0.0
  9
$LIMMAX
 10
12.0
 20
9.0
  9
$ORTHOMODE
 70
     0
  9
$REGENMODE
 70
     1
  9
$FILLMODE
 70
     1
  9
$QTEXTMODE
 70
     0
  9
$MIRRTEXT
 70
     1
  9
$DRAGMODE
 70
     2
  9
$LTSCALE
 40
1.0
  9
$OSMODE
 70
    37
  9
$ATTMODE
 70
     1
  9
$TEXTSIZE
 40
0.2
  9
$TRACEWID
 40
0.05
  9
$TEXTSTYLE
  7
STANDARD
  9
$CLAYER
  8
0
  9
$CELTYPE
  6
BYLAYER
  9
$CECOLOR
 62
   256
  9
$CELTSCALE
 40
1.0
  9
$DELOBJ
 70
     1
  9
$DISPSILH
 70
     0
  9
$DIMSCALE
 40
1.0
  9
$DIMASZ
 40
0.06
  9
$DIMEXO
 40
0.0625
  9
$DIMDLI
 40
0.38
  9
$DIMRND
 40
0.0
  9
$DIMDLE
 40
0.0
  9
$DIMEXE
 40
0.18
  9
$DIMTP
 40
0.0
  9
$DIMTM
 40
0.0
  9
$DIMTXT
 40
0.0482483533954122
  9
$DIMCEN
 40
0.09
  9
$DIMTSZ
 40
0.0
  9
$DIMTOL
 70
     0
  9
$DIMLIM
 70
     0
  9
$DIMTIH
 70
     1
  9
$DIMTOH
 70
     1
  9
$DIMSE1
 70
     0
  9
$DIMSE2
 70
     0
  9
$DIMTAD
 70
     0
  9
$DIMZIN
 70
     0
  9
$DIMBLK
  1

  9
$DIMASO
 70
     1
  9
$DIMSHO
 70
     1
  9
$DIMPOST
  1

  9
$DIMAPOST
  1

  9
$DIMALT
 70
     0
  9
$DIMALTD
 70
     2
  9
$DIMALTF
 40
25.4
  9
$DIMLFAC
 40
1.0
  9
$DIMTOFL
 70
     0
  9
$DIMTVP
 40
0.0
  9
$DIMTIX
 70
     0
  9
$DIMSOXD
 70
     0
  9
$DIMSAH
 70
     0
  9
$DIMBLK1
  1

  9
$DIMBLK2
  1

  9
$DIMSTYLE
  2
STANDARD
  9
$DIMCLRD
 70
     0
  9
$DIMCLRE
 70
     0
  9
$DIMCLRT
 70
     0
  9
$DIMTFAC
 40
1.0
  9
$DIMGAP
 40
0.09
  9
$DIMJUST
 70
     0
  9
$DIMSD1
 70
     0
  9
$DIMSD2
 70
     0
  9
$DIMTOLJ
 70
     1
  9
$DIMTZIN
 70
     0
  9
$DIMALTZ
 70
     0
  9
$DIMALTTZ
 70
     0
  9
$DIMFIT
 70
     3
  9
$DIMUPT
 70
     0
  9
$DIMUNIT
 70
     2
  9
$DIMDEC
 70
     4
  9
$DIMTDEC
 70
     4
  9
$DIMALTU
 70
     2
  9
$DIMALTTD
 70
     2
  9
$DIMTXSTY
  7
STANDARD
  9
$DIMAUNIT
 70
     0
  9
$LUNITS
 70
     2
  9
$LUPREC
 70
     4
  9
$SKETCHINC
 40
0.1
  9
$FILLETRAD
 40
0.5
  9
$AUNITS
 70
     0
  9
$AUPREC
 70
     0
  9
$MENU
  1
.
  9
$ELEVATION
 40
0.0
  9
$PELEVATION
 40
0.0
  9
$THICKNESS
 40
0.0
  9
$LIMCHECK
 70
     0
  9
$CHAMFERA
 40
0.5
  9
$CHAMFERB
 40
0.5
  9
$CHAMFERC
 40
1.0
  9
$CHAMFERD
 40
0.0
  9
$SKPOLY
 70
     0
  9
$TDCREATE
 40
2456260.064070914
  9
$TDUPDATE
 40
2456260.064075741
  9
$TDINDWG
 40
0.0000000116
  9
$TDUSRTIMER
 40
0.0000000116
  9
$USRTIMER
 70
     1
  9
$ANGBASE
 50
0.0
  9
$ANGDIR
 70
     0
  9
$PDMODE
 70
     0
  9
$PDSIZE
 40
0.0
  9
$PLINEWID
 40
0.0
  9
$COORDS
 70
     1
  9
$SPLFRAME
 70
     0
  9
$SPLINETYPE
 70
     6
  9
$SPLINESEGS
 70
     8
  9
$ATTDIA
 70
     0
  9
$ATTREQ
 70
     1
  9
$HANDLING
 70
     1
  9
$HANDSEED
  5
A2
  9
$SURFTAB1
 70
     6
  9
$SURFTAB2
 70
     6
  9
$SURFTYPE
 70
     6
  9
$SURFU
 70
     6
  9
$SURFV
 70
     6
  9
$UCSNAME
  2

  9
$UCSORG
 10
0.0
 20
0.0
 30
0.0
  9
$UCSXDIR
 10
1.0
 20
0.0
 30
0.0
  9
$UCSYDIR
 10
0.0
 20
1.0
 30
0.0
  9
$PUCSNAME
  2

  9
$PUCSORG
 10
0.0
 20
0.0
 30
0.0
  9
$PUCSXDIR
 10
1.0
 20
0.0
 30
0.0
  9
$PUCSYDIR
 10
0.0
 20
1.0
 30
0.0
  9
$USERI1
 70
     0
  9
$USERI2
 70
     0
  9
$USERI3
 70
     0
  9
$USERI4
 70
     0
  9
$USERI5
 70
     0
  9
$USERR1
 40
0.0
  9
$USERR2
 40
0.0
  9
$USERR3
 40
0.0
  9
$USERR4
 40
0.0
  9
$USERR5
 40
0.0
  9
$WORLDVIEW
 70
     1
  9
$SHADEDGE
 70
     3
  9
$SHADEDIF
 70
    70
  9
$TILEMODE
 70
     1
  9
$MAXACTVP
 70
    64
  9
$PINSBASE
 10
0.0
 20
0.0
 30
0.0
  9
$PLIMCHECK
 70
     0
  9
$PEXTMIN
 10
1.000000000000000E+20
 20
1.000000000000000E+20
 30
1.000000000000000E+20
  9
$PEXTMAX
 10
-1.000000000000000E+20
 20
-1.000000000000000E+20
 30
-1.000000000000000E+20
  9
$PLIMMIN
 10
0.0
 20
0.0
  9
$PLIMMAX
 10
12.0
 20
9.0
  9
$UNITMODE
 70
     0
  9
$VISRETAIN
 70
     1
  9
$PLINEGEN
 70
     0
  9
$PSLTSCALE
 70
     1
  9
$TREEDEPTH
 70
  3020
  9
$PICKSTYLE
 70
     1
  9
$CMLSTYLE
  2
STANDARD
  9
$CMLJUST
 70
     0
  9
$CMLSCALE
 40
1.0
  9
$PROXYGRAPHICS
 70
     1
  9
$MEASUREMENT
 70
     0
  0
ENDSEC
  0
SECTION
  2
CLASSES
  0
CLASS
  1
ACDBDICTIONARYWDFLT
  2
AcDbDictionaryWithDefault
  3
ObjectDBX Classes
 90
        0
280
     0
281
     0
  0
CLASS
  1
VISUALSTYLE
  2
AcDbVisualStyle
  3
ObjectDBX Classes
 90
     4095
280
     0
281
     0
  0
CLASS
  1
MATERIAL
  2
AcDbMaterial
  3
ObjectDBX Classes
 90
     1153
280
     0
281
     0
  0
CLASS
  1
DICTIONARYVAR
  2
AcDbDictionaryVar
  3
ObjectDBX Classes
 90
        0
280
     0
281
     0
  0
CLASS
  1
XRECORD
  2
AcDbXrecord
  3
AutoCAD 2000
 90
        0
280
     0
281
     0
  0
CLASS
  1
LWPOLYLINE
  2
AcDbPolyline
  3
AutoCAD 2000
 90
        0
280
     0
281
     1
  0
CLASS
  1
HATCH
  2
AcDbHatch
  3
AutoCAD 2000
 90
        0
280
     0
281
     1
  0
CLASS
  1
ACDBPLACEHOLDER
  2
AcDbPlaceHolder
  3
ObjectDBX Classes
 90
        0
280
     0
281
     0
  0
CLASS
  1
LAYOUT
  2
AcDbLayout
  3
ObjectDBX Classes
 90
        0
280
     0
281
     0
  0
ENDSEC
  0
SECTION
  2
TABLES
  0
TABLE
  2
VPORT
  5
8
330
0
100
AcDbSymbolTable
 70
     1
  0
VPORT
  5
29
330
8
100
AcDbSymbolTableRecord
100
AcDbViewportTableRecord
  2
*ACTIVE
 70
     0
 10
0.0
 20
0.0
 11
1.0
 21
1.0
 12
10.42990654205607
 22
4.5
 13
0.0
 23
0.0
 14
0.5
 24
0.5
 15
0.5
 25
0.5
 16
0.0
 26
0.0
 36
1.0
 17
0.0
 27
0.0
 37
0.0
 40
9.0
 41
1.972972972850329
 42
50.0
 43
0.0
 44
0.0
 50
0.0
 51
0.0
 71
     0
 72
   100
 73
     1
 74
     3
 75
     0
 76
     0
 77
     0
 78
     0
  0
ENDTAB
  0
TABLE
  2
LTYPE
  5
5
330
0
100
AcDbSymbolTable
 70
     1
  0
LTYPE
  5
14
330
5
100
AcDbSymbolTableRecord
100
AcDbLinetypeTableRecord
  2
BYBLOCK
 70
     0
  3

 72
    65
 73
     0
 40
0.0
  0
LTYPE
  5
15
330
5
100
AcDbSymbolTableRecord
100
AcDbLinetypeTableRecord
  2
BYLAYER
 70
     0
  3

 72
    65
 73
     0
 40
0.0
  0
LTYPE
  5
16
330
5
100
AcDbSymbolTableRecord
100
AcDbLinetypeTableRecord
  2
CONTINUOUS
 70
     0
  3
Solid line
 72
    65
 73
     0
 40
0.0
  0
ENDTAB
  0
TABLE
  2
LAYER
  5
2
330
0
100
AcDbSymbolTable
 70
     2
  0
LAYER
  5
10
330
2
100
AcDbSymbolTableRecord
100
AcDbLayerTableRecord
  2
0
 70
     0
 62
     7
  6
CONTINUOUS
  0
LAYER
  5
3F
330
2
100
AcDbSymbolTableRecord
100
AcDbLayerTableRecord
  2
VISIBLE
 70
     0
 62
     7
  6
CONTINUOUS
  0
ENDTAB
  0
TABLE
  2
STYLE
  5
3
330
0
100
AcDbSymbolTable
 70
     1
  0
STYLE
  5
11
330
3
100
AcDbSymbolTableRecord
100
AcDbTextStyleTableRecord
  2
STANDARD
 70
     0
 40
0.0
 41
1.0
 50
0.0
 71
     0
 42
0.2
  3
txt
  4

  0
ENDTAB
  0
TABLE
  2
VIEW
  5
6
330
0
100
AcDbSymbolTable
 70
     0
  0
ENDTAB
  0
TABLE
  2
UCS
  5
7
330
0
100
AcDbSymbolTable
 70
     0
  0
ENDTAB
  0
TABLE
  2
APPID
  5
9
330
0
100
AcDbSymbolTable
 70
     1
  0
APPID
  5
12
330
9
100
AcDbSymbolTableRecord
100
AcDbRegAppTableRecord
  2
ACAD
 70
     0
  0
ENDTAB
  0
TABLE
  2
DIMSTYLE
  5
A
330
0
100
AcDbSymbolTable
 70
     1
  0
DIMSTYLE
105
27
330
A
100
AcDbSymbolTableRecord
100
AcDbDimStyleTableRecord
  2
STANDARD
 70
     0
  3

  4

  5

  6

  7

 40
1.0
 41
0.18
 42
0.0625
 43
0.38
 44
0.18
 45
0.0
 46
0.0
 47
0.0
 48
0.0
140
0.18
141
0.09
142
0.0
143
25.4
144
1.0
145
0.0
146
1.0
147
0.09
 71
     0
 72
     0
 73
     1
 74
     1
 75
     0
 76
     0
 77
     0
 78
     0
170
     0
171
     2
172
     0
173
     0
174
     0
175
     0
176
     0
177
     0
178
     0
270
     2
271
     4
272
     4
273
     2
274
     2
340
11
275
     0
280
     0
281
     0
282
     0
283
     1
284
     0
285
     0
286
     0
287
     3
288
     0
  0
ENDTAB
  0
TABLE
  2
BLOCK_RECORD
  5
1
330
0
100
AcDbSymbolTable
 70
     1
  0
BLOCK_RECORD
  5
1F
330
1
100
AcDbSymbolTableRecord
100
AcDbBlockTableRecord
  2
*MODEL_SPACE
  0
BLOCK_RECORD
  5
1B
330
1
100
AcDbSymbolTableRecord
100
AcDbBlockTableRecord
  2
*PAPER_SPACE
  0
ENDTAB
  0
ENDSEC
  0
SECTION
  2
BLOCKS
  0
BLOCK
  5
20
330
1F
100
AcDbEntity
  8
0
100
AcDbBlockBegin
  2
*MODEL_SPACE
 70
     0
 10
0.0
 20
0.0
 30
0.0
  3
*MODEL_SPACE
  1

  0
ENDBLK
  5
21
330
1F
100
AcDbEntity
  8
0
100
AcDbBlockEnd
  0
BLOCK
  5
1C
330
1B
100
AcDbEntity
 67
     1
  8
0
100
AcDbBlockBegin
  2
*PAPER_SPACE
 70
     0
 10
0.0
 20
0.0
 30
0.0
  3
*PAPER_SPACE
  1

  0
ENDBLK
  5
1D
330
1B
100
AcDbEntity
 67
     1
  8
0
100
AcDbBlockEnd
  0
ENDSEC
  0
SECTION
  2
ENTITIES
  0
ARC
  5
40
330
1F
100
AcDbEntity
  8
VISIBLE
100
AcDbCircle
 10
9.579885823442966
 20
2.930420695826442
 30
0.0
 40
0.9220256009673153
100
AcDbArc
 50
67.39672170849933
 51
112.6032782915375
  0
ARC
  5
41
330
1F
100
AcDbEntity
  8
VISIBLE
100
AcDbCircle
 10
9.234849223940401
 20
2.724900343258643
 30
0.0
 40
1.296042686913971
100
AcDbArc
 50
222.2024434199016
 51
257.7975565801859
  0
LINE
  5
42
330
1F
100
AcDbEntity
  8
VISIBLE
100
AcDbLine
 10
8.74485160666546
 20
3.337394928425819
 30
0.0
 11
8.860949678174334
 21
3.452353279617974
 31
0.0
  0
LINE
  5
43
330
1F
100
AcDbEntity
  8
VISIBLE
100
AcDbLine
 10
5.609849223940388
 20
5.974900343258646
 30
0.0
 11
5.359849223940395
 21
5.974900343258646
 31
0.0
  0
ARC
  5
44
330
1F
100
AcDbEntity
  8
VISIBLE
100
AcDbCircle
 10
9.654704906752473
 20
1.908114859543289
 30
0.0
 40
1.656326714648795
100
AcDbArc
 50
136.6748222605187
 51
153.3167310363521
  0
LINE
  5
45
330
1F
100
AcDbEntity
  8
VISIBLE
100
AcDbLine
 10
5.354849223940391
 20
6.474900343258646
 30
0.0
 11
5.614849223940391
 21
6.474900343258646
 31
0.0
  0
LINE
  5
46
330
1F
100
AcDbEntity
  8
VISIBLE
100
AcDbLine
 10
5.359849223940393
 20
5.474900343258645
 30
0.0
 11
2.519923714613724
 21
3.044583716434544
 31
0.0
  0
LINE
  5
47
330
1F
100
AcDbEntity
  8
VISIBLE
100
AcDbLine
 10
2.108748769706447
 20
3.452353279617975
 30
0.0
 11
2.222230882405288
 21
3.334772698814506
 31
0.0
  0
ARC
  5
48
330
1F
100
AcDbEntity
  8
VISIBLE
100
AcDbCircle
 10
1.066981053337499
 20
1.67821691431743
 30
0.0
 40
0.7431167561512377
100
AcDbArc
 50
348.9582536544311
 51
25.0207864090231
  0
LINE
  5
49
330
1F
100
AcDbEntity
  8
VISIBLE
100
AcDbLine
 10
5.359849223940395
 20
5.974900343258646
 30
0.0
 11
5.359849223940395
 21
5.474900343258647
 31
0.0
  0
ARC
  5
4A
330
1F
100
AcDbEntity
  8
VISIBLE
100
AcDbCircle
 10
1.389812624437822
 20
2.930420695826435
 30
0.0
 40
0.9220256009673151
100
AcDbArc
 50
67.3967217084629
 51
112.603278291501
  0
ARC
  5
4B
330
1F
100
AcDbEntity
  8
VISIBLE
100
AcDbCircle
 10
-9.338433529315854
 20
3.236701134525442
 30
0.0
 40
10.13252398548495
100
AcDbArc
 50
359.2900056473861
 51
0.709994370576409
  0
ARC
  5
4C
330
1F
100
AcDbEntity
  8
VISIBLE
100
AcDbCircle
 10
10.42273773215882
 20
3.054781120546042
 30
0.0
 40
0.2527173684381719
100
AcDbArc
 50
167.1129196108274
 51
261.7147075849685
  0
ARC
  5
4D
330
1F
100
AcDbEntity
  8
VISIBLE
100
AcDbCircle
 10
0.5277944139230186
 20
2.892008027936492
 30
0.0
 40
0.1034986127938876
100
AcDbArc
 50
237.5172850957834
 51
302.4827149037165
  0
ARC
  5
4E
330
1F
100
AcDbEntity
  8
VISIBLE
100
AcDbCircle
 10
2.142630667579238
 20
2.328602212633544
 30
0.0
 40
0.7280188341420143
100
AcDbArc
 50
319.3434348709391
 51
26.36457835961234
  0
ARC
  5
4F
330
1F
100
AcDbEntity
  8
VISIBLE
100
AcDbCircle
 10
10.77151881183428
 20
2.199870022485644
 30
0.0
 40
0.6640136964421516
100
AcDbArc
 50
85.87951127760822
 51
114.3738849869284
  0
ARC
  5
50
330
1F
100
AcDbEntity
  8
VISIBLE
100
AcDbCircle
 10
1.734849223940391
 20
2.724900343258645
 30
0.0
 40
1.296042686913971
100
AcDbArc
 50
282.202443419814
 51
317.7975565800736
  0
ARC
  5
51
330
1F
100
AcDbEntity
  8
VISIBLE
100
AcDbCircle
 10
0.1735860340384718
 20
2.727881842705559
 30
0.0
 40
0.1362610063446579
100
AcDbArc
 50
99.76825427944169
 51
170.2317457205675
  0
ARC
  5
52
330
1F
100
AcDbEntity
  8
VISIBLE
100
AcDbCircle
 10
10.90529301850599
 20
2.7250295161889
 30
0.0
 40
0.0361211935178968
100
AcDbArc
 50
284.9999147229213
 51
45.97131003016941
  0
ARC
  5
53
330
1F
100
AcDbEntity
  8
VISIBLE
100
AcDbCircle
 10
-0.029182382630859
 20
2.375752967410595
 30
0.0
 40
0.325476353601117
100
AcDbArc
 50
28.17153831968142
 51
75.00008527706647
  0
ARC
  5
54
330
1F
100
AcDbEntity
  8
VISIBLE
100
AcDbCircle
 10
10.25750733707697
 20
2.362488363681195
 30
0.0
 40
0.484141005671156
100
AcDbArc
 50
339.831121503549
 51
20.16887849644748
  0
ARC
  5
55
330
1F
100
AcDbEntity
  8
VISIBLE
100
AcDbCircle
 10
1.432464576093721
 20
2.368289107884675
 30
0.0
 40
0.0794940160522227
100
AcDbArc
 50
37.80114812011578
 51
201.9100695584132
  0
ARC
  5
56
330
1F
100
AcDbEntity
  8
VISIBLE
100
AcDbCircle
 10
10.12909619675677
 20
2.162729157624571
 30
0.0
 40
0.4610602436175174
100
AcDbArc
 50
230.9259243525684
 51
293.17021371586
  0
ARC
  5
57
330
1F
100
AcDbEntity
  8
VISIBLE
100
AcDbCircle
 10
0.7218159898349272
 20
2.294649919438162
 30
0.0
 40
0.6384127711048057
100
AcDbArc
 50
309.8876289793415
 51
3.949845788277537
  0
ARC
  5
58
330
1F
100
AcDbEntity
  8
VISIBLE
100
AcDbCircle
 10
9.537233871787073
 20
2.368289107884677
 30
0.0
 40
0.079494016052223
100
AcDbArc
 50
338.0899304415871
 51
142.1988518798872
  0
ARC
  5
59
330
1F
100
AcDbEntity
  8
VISIBLE
100
AcDbCircle
 10
9.902717394543295
 20
1.678216914317433
 30
0.0
 40
0.7431167561512363
100
AcDbArc
 50
154.9792135909773
 51
191.0417463455691
  0
LINE
  5
5A
330
1F
100
AcDbEntity
  8
VISIBLE
100
AcDbLine
 10
2.519923714613724
 20
3.044583716434544
 30
0.0
 11
2.640230267942136
 21
2.901677038555283
 31
0.0
  0
ARC
  5
5B
330
1F
100
AcDbEntity
  8
VISIBLE
100
AcDbCircle
 10
9.738552990380157
 20
3.389052122980889
 30
0.0
 40
0.4386520673507467
100
AcDbArc
 50
356.4979668389274
 51
63.50203316110898
  0
LINE
  5
5C
330
1F
100
AcDbEntity
  8
VISIBLE
100
AcDbLine
 10
9.071655391568944
 20
1.434190194465885
 30
0.0
 11
8.96090924474411
 21
1.458139302611624
 31
0.0
  0
ARC
  5
5D
330
1F
100
AcDbEntity
  8
VISIBLE
100
AcDbCircle
 10
16.02708179780198
 20
-4.11529878277973
 30
0.0
 40
10.42222659960295
100
AcDbArc
 50
130.7381344474097
 51
133.438981774273
  0
LINE
  5
5E
330
1F
100
AcDbEntity
  8
VISIBLE
100
AcDbLine
 10
5.609849223940388
 20
5.474900343258647
 30
0.0
 11
5.609849223940388
 21
5.974900343258646
 31
0.0
  0
ARC
  5
5F
330
1F
100
AcDbEntity
  8
VISIBLE
100
AcDbCircle
 10
8.827067780301556
 20
2.328602212633545
 30
0.0
 40
0.7280188341420162
100
AcDbArc
 50
153.6354216403882
 51
220.6565651290168
  0
LINE
  5
60
330
1F
100
AcDbEntity
  8
VISIBLE
100
AcDbLine
 10
5.614849223940391
 20
6.474900343258647
 30
0.0
 11
8.74485160666546
 21
3.337394928425819
 31
0.0
  0
LINE
  5
61
330
1F
100
AcDbEntity
  8
VISIBLE
100
AcDbLine
 10
8.449774733267066
 20
3.044583716434537
 30
0.0
 11
5.609849223940388
 21
5.474900343258647
 31
0.0
  0
LINE
  5
62
330
1F
100
AcDbEntity
  8
VISIBLE
100
AcDbLine
 10
2.222230882405288
 20
3.334772698814506
 30
0.0
 11
5.354849223940391
 21
6.474900343258646
 31
0.0
  0
ARC
  5
63
330
1F
100
AcDbEntity
  8
VISIBLE
100
AcDbCircle
 10
-5.057383349921172
 20
-4.115298782779758
 30
0.0
 40
10.42222659960295
100
AcDbArc
 50
46.56101822572719
 51
49.26186555259056
  0
ARC
  5
64
330
1F
100
AcDbEntity
  8
VISIBLE
100
AcDbCircle
 10
1.231145457500632
 20
3.389052122980885
 30
0.0
 40
0.438652067350746
100
AcDbArc
 50
116.4979668388917
 51
183.5020331610727
  0
ARC
  5
65
330
1F
100
AcDbEntity
  8
VISIBLE
100
AcDbCircle
 10
0.5469607157219674
 20
3.054781120546036
 30
0.0
 40
0.2527173684381717
100
AcDbArc
 50
278.2852924150303
 51
12.88708038917268
  0
ARC
  5
66
330
1F
100
AcDbEntity
  8
VISIBLE
100
AcDbCircle
 10
0.0685974133248575
 20
1.310321519660869
 30
0.0
 40
1.8055962886338
100
AcDbArc
 50
22.19885187986257
 51
37.8011481201157
  0
ARC
  5
67
330
1F
100
AcDbEntity
  8
VISIBLE
100
AcDbCircle
 10
10.44190403395777
 20
2.892008027936495
 30
0.0
 40
0.1034986127938877
100
AcDbArc
 50
237.5172850962801
 51
302.4827149042152
  0
ARC
  5
68
330
1F
100
AcDbEntity
  8
VISIBLE
100
AcDbCircle
 10
0.1981796360465156
 20
2.19987002248564
 30
0.0
 40
0.6640136964421514
100
AcDbArc
 50
65.62611501307236
 51
94.12048872239276
  0
ARC
  5
69
330
1F
100
AcDbEntity
  8
VISIBLE
100
AcDbCircle
 10
10.79611241384232
 20
2.727881842705563
 30
0.0
 40
0.1362610063446583
100
AcDbArc
 50
9.768254279433886
 51
80.23174572056134
  0
ARC
  5
6A
330
1F
100
AcDbEntity
  8
VISIBLE
100
AcDbCircle
 10
0.8343085001774062
 20
2.297586229245899
 30
0.0
 40
0.5855280706978947
100
AcDbArc
 50
190.0345977784943
 51
252.5979397556019
  0
ARC
  5
6B
330
1F
100
AcDbEntity
  8
VISIBLE
100
AcDbCircle
 10
0.0644054293748066
 20
2.725029516188894
 30
0.0
 40
0.0361211935178979
100
AcDbArc
 50
134.0286899698356
 51
255.0000852770661
  0
ARC
  5
6C
330
1F
100
AcDbEntity
  8
VISIBLE
100
AcDbCircle
 10
10.99888083051165
 20
2.3757529674106
 30
0.0
 40
0.3254763536011172
100
AcDbArc
 50
104.999914722935
 51
151.8284616803192
  0
ARC
  5
6D
330
1F
100
AcDbEntity
  8
VISIBLE
100
AcDbCircle
 10
0.7121911108038219
 20
2.362488363681191
 30
0.0
 40
0.4841410056711558
100
AcDbArc
 50
159.8311215035524
 51
200.1688784964511
  0
ARC
  5
6E
330
1F
100
AcDbEntity
  8
VISIBLE
100
AcDbCircle
 10
10.13538994770338
 20
2.297586229245903
 30
0.0
 40
0.5855280706978958
100
AcDbArc
 50
287.4020602443978
 51
349.9654022215058
  0
LINE
  5
6F
330
1F
100
AcDbEntity
  8
VISIBLE
100
AcDbLine
 10
2.008789203136678
 20
1.458139302611625
 30
0.0
 11
1.898043056311845
 21
1.434190194465887
 31
0.0
  0
ARC
  5
70
330
1F
100
AcDbEntity
  8
VISIBLE
100
AcDbCircle
 10
1.314993541128008
 20
1.908114859543067
 30
0.0
 40
1.656326714649174
100
AcDbArc
 50
26.68326896365009
 51
36.85978662833146
  0
ARC
  5
71
330
1F
100
AcDbEntity
  8
VISIBLE
100
AcDbCircle
 10
0.8406022511240252
 20
2.162729157624566
 30
0.0
 40
0.4610602436175166
100
AcDbArc
 50
246.8297862841391
 51
309.074075647431
  0
ARC
  5
72
330
1F
100
AcDbEntity
  8
VISIBLE
100
AcDbCircle
 10
10.24788245804586
 20
2.294649919438166
 30
0.0
 40
0.6384127711048032
100
AcDbArc
 50
176.0501542117227
 51
230.1123710206583
  0
ARC
  5
73
330
1F
100
AcDbEntity
  8
VISIBLE
100
AcDbCircle
 10
10.90110103455594
 20
1.310321519660875
 30
0.0
 40
1.8055962886338
100
AcDbArc
 50
142.1988518798846
 51
157.8011481201377
  0
ARC
  5
74
330
1F
100
AcDbEntity
  8
VISIBLE
100
AcDbCircle
 10
1.939531083754783
 20
1.577380122416371
 30
0.0
 40
0.1490792134657645
100
AcDbArc
 50
196.1584824028988
 51
253.8415175976986
  0
ARC
  5
75
330
1F
100
AcDbEntity
  8
VISIBLE
100
AcDbCircle
 10
20.30813197719664
 20
3.236701134525478
 30
0.0
 40
10.13252398548495
100
AcDbArc
 50
179.2900056294238
 51
180.7099943526141
  0
ARC
  5
76
330
1F
100
AcDbEntity
  8
VISIBLE
100
AcDbCircle
 10
9.030167364126012
 20
1.577380122416372
 30
0.0
 40
0.1490792134657642
100
AcDbArc
 50
286.1584824022991
 51
343.8415175971019
  0
ENDSEC
  0
SECTION
  2
OBJECTS
  0
DICTIONARY
  5
C
330
0
100
AcDbDictionary
  3
ACAD_GROUP
350
D
  3
ACAD_LAYOUT
350
1A
  3
ACAD_MATERIAL
350
3B
  3
ACAD_MLEADERSTYLE
350
99
  3
ACAD_MLINESTYLE
350
17
  3
ACAD_PLOTSETTINGS
350
19
  3
ACAD_VISUALSTYLE
350
2A
  3
ACDBHEADERROUNDTRIPXREC
350
77
  3
ACDBVARIABLEDICTIONARY
350
97
  0
DICTIONARY
  5
D
102
{ACAD_REACTORS
330
C
102
}
330
C
100
AcDbDictionary
  0
DICTIONARY
  5
1A
102
{ACAD_REACTORS
330
C
102
}
330
C
100
AcDbDictionary
  0
DICTIONARY
  5
3B
102
{ACAD_REACTORS
330
C
102
}
330
C
100
AcDbDictionary
  3
BYBLOCK
350
3D
  3
BYLAYER
350
3C
  3
GLOBAL
350
3E
  0
DICTIONARY
  5
99
102
{ACAD_REACTORS
330
C
102
}
330
C
100
AcDbDictionary
  0
DICTIONARY
  5
17
102
{ACAD_REACTORS
330
C
102
}
330
C
100
AcDbDictionary
  3
STANDARD
350
18
  0
DICTIONARY
  5
19
102
{ACAD_REACTORS
330
C
102
}
330
C
100
AcDbDictionary
  0
DICTIONARY
  5
2A
102
{ACAD_REACTORS
330
C
102
}
330
C
100
AcDbDictionary
  3
2DWIREFRAME
350
2F
  3
3D_HIDDEN
350
31
  3
3DWIREFRAME
350
30
  3
BASIC
350
32
  3
BRIGHTEN
350
36
  3
COLORCHANGE
350
3A
  3
CONCEPTUAL
350
34
  3
DIM
350
35
  3
FACEPATTERN
350
39
  3
FLAT
350
2B
  3
FLATWITHEDGES
350
2C
  3
GOURAUD
350
2D
  3
GOURAUDWITHEDGES
350
2E
  3
LINEPATTERN
350
38
  3
REALISTIC
350
33
  3
THICKEN
350
37
  0
DICTIONARY
  5
77
102
{ACAD_REACTORS
330
C
102
}
330
C
100
AcDbDictionary
  3
CEPSNTYPE
350
80
  3
DIMSTYLEDATA
350
96
  3
FINGERPRINTGUID
350
81
  3
HYPERLINKBASE
350
7A
  3
INSUNITS
350
7F
  3
LAYOUTDICT
350
7C
  3
LWETCUNION
350
7E
  3
PLOTSETDICT
350
7D
  3
PSVPSCALE
350
83
  3
PUCSBASE
350
86
  3
PUCSORGBACK
350
8C
  3
PUCSORGBOTTOM
350
88
  3
PUCSORGFRONT
350
8B
  3
PUCSORGLEFT
350
89
  3
PUCSORGRIGHT
350
8A
  3
PUCSORGTOP
350
87
  3
PUCSORTHOREF
350
84
  3
PUCSORTHOVIEW
350
85
  3
STYLESHEET
350
7B
  3
TSTACKALIGN
350
78
  3
TSTACKSIZE
350
79
  3
UCSBASE
350
8F
  3
UCSORGBACK
350
95
  3
UCSORGBOTTOM
350
91
  3
UCSORGFRONT
350
94
  3
UCSORGLEFT
350
92
  3
UCSORGRIGHT
350
93
  3
UCSORGTOP
350
90
  3
UCSORTHOREF
350
8D
  3
UCSORTHOVIEW
350
8E
  3
VERSIONGUID
350
82
  0
DICTIONARY
  5
97
102
{ACAD_REACTORS
330
C
102
}
330
C
100
AcDbDictionary
  3
DIMASSOC
350
9A
  3
HIDETEXT
350
9B
  0
MATERIAL
  5
3D
102
{ACAD_REACTORS
330
3B
102
}
102
{ACAD_XDICTIONARY
360
9E
102
}
330
3B
100
AcDbMaterial
  1
ByBlock
  0
MATERIAL
  5
3C
102
{ACAD_REACTORS
330
3B
102
}
102
{ACAD_XDICTIONARY
360
9C
102
}
330
3B
100
AcDbMaterial
  1
ByLayer
  0
MATERIAL
  5
3E
102
{ACAD_REACTORS
330
3B
102
}
102
{ACAD_XDICTIONARY
360
A0
102
}
330
3B
100
AcDbMaterial
  1
Global
  0
MLINESTYLE
  5
18
102
{ACAD_REACTORS
330
17
102
}
330
17
100
AcDbMlineStyle
  2
Standard
 70
     0
  3

 62
   256
 51
90.0
 52
90.0
 71
     2
 49
0.5
 62
   256
  6
BYLAYER
 49
-0.5
 62
   256
  6
BYLAYER
  0
ACAD_PROXY_OBJECT
  5
2F
102
{ACAD_REACTORS
330
2A
102
}
330
2A
100
AcDbProxyObject
 90
      499
 91
      501
 93
      436
310
42CC9915DA5C99599C985B595049028333333333333E3BF0000000000000FB0107901411070040501600405405064090741402480A0340
1001
ACAD
1000
AcDbSavedByObjectVersion
1070
     0
  0
ACAD_PROXY_OBJECT
  5
31
102
{ACAD_REACTORS
330
2A
102
}
330
2A
100
AcDbProxyObject
 90
      499
 91
      501
 93
      500
310
424CD108121A5919195B90640502408333333333333E3BF0000000000000FB01079024090700405020000000000001110200405405064090740C02480A0340
1001
ACAD
1000
AcDbSavedByObjectVersion
1070
     0
  0
ACAD_PROXY_OBJECT
  5
30
102
{ACAD_REACTORS
330
2A
102
}
330
2A
100
AcDbProxyObject
 90
      499
 91
      501
 93
      436
310
42CCD915DA5C99599C985B595059028333333333333E3BF0000000000000FB0107901411070040501600405405064090741402480A0340
1001
ACAD
1000
AcDbSavedByObjectVersion
1070
     0
  0
ACAD_PROXY_OBJECT
  5
32
102
{ACAD_REACTORS
330
2A
102
}
330
2A
100
AcDbProxyObject
 90
      499
 91
      501
 93
      388
310
4150985CDA58D07406404333333333333E3BF0000000000000FB0107A41107004050150841D405064090741402480A0350
1001
ACAD
1000
AcDbSavedByObjectVersion
1070
     0
  0
ACAD_PROXY_OBJECT
  5
36
102
{ACAD_REACTORS
330
2A
102
}
330
2A
100
AcDbProxyObject
 90
      499
 91
      501
 93
      428
310
42109C9A59DA1D195B90C409028333333333333E3BF0000000000000FB010790141107004050150841D405064090741402480A029950
1001
ACAD
1000
AcDbSavedByObjectVersion
1070
     0
  0
ACAD_PROXY_OBJECT
  5
3A
102
{ACAD_REACTORS
330
2A
102
}
330
2A
100
AcDbProxyObject
 90
      499
 91
      501
 93
      452
310
42D0DBDB1BDC90DA185B99D95104090240C333333333333E3BF0000000000000FB0108901411070040501508421405064090741402480A0350
1001
ACAD
1000
AcDbSavedByObjectVersion
1070
     0
  0
ACAD_PROXY_OBJECT
  5
34
102
{ACAD_REACTORS
330
2A
102
}
330
2A
100
AcDbProxyObject
 90
      499
 91
      501
 93
      500
310
4290DBDB98D95C1D1D585B10940D028333333333333E3BF0000000000000FB0107902409070040501000000000000111010841D405064090740C02480A0340
1001
ACAD
1000
AcDbSavedByObjectVersion
1070
     0
  0
ACAD_PROXY_OBJECT
  5
35
102
{ACAD_REACTORS
330
2A
102
}
330
2A
100
AcDbProxyObject
 90
      499
 91
      501
 93
      412
310
40D11A5B50B409028333333333333E3BF0000000000000FB010790141107004050150841D405064090741402480A02677FFFFFD0
1001
ACAD
1000
AcDbSavedByObjectVersion
1070
     0
  0
ACAD_PROXY_OBJECT
  5
39
102
{ACAD_REACTORS
330
2A
102
}
330
2A
100
AcDbProxyObject
 90
      499
 91
      501
 93
      444
310
42D19858D95C185D1D195C9B90F409028333333333333E3BF0000000000000FB010790141107004050150841D405064090741402480A0350
1001
ACAD
1000
AcDbSavedByObjectVersion
1070
     0
  0
ACAD_PROXY_OBJECT
  5
2B
102
{ACAD_REACTORS
330
2A
102
}
330
2A
100
AcDbProxyObject
 90
      499
 91
      501
 93
      388
310
41119B185D240901404333333333333E3BF0000000000000F9010740A41107004050150841D405064090741402480A1B50
1001
ACAD
1000
AcDbSavedByObjectVersion
1070
     0
  0
ACAD_PROXY_OBJECT
  5
2C
102
{ACAD_REACTORS
330
2A
102
}
330
2A
100
AcDbProxyObject
 90
      499
 91
      501
 93
      476
310
43519B185D15DA5D1A115919D95CD0140901404333333333333E3BF0000000000000F9010740901411070040501600405405064090741402480A1B50
1001
ACAD
1000
AcDbSavedByObjectVersion
1070
     0
  0
ACAD_PROXY_OBJECT
  5
2D
102
{ACAD_REACTORS
330
2A
102
}
330
2A
100
AcDbProxyObject
 90
      499
 91
      501
 93
      412
310
41D1DBDD5C985D5910240902404333333333333E3BF0000000000000F9010740A411070040501641D405064090741402480A1B50
1001
ACAD
1000
AcDbSavedByObjectVersion
1070
     0
  0
ACAD_PROXY_OBJECT
  5
2E
102
{ACAD_REACTORS
330
2A
102
}
330
2A
100
AcDbProxyObject
 90
      499
 91
      501
 93
      500
310
4411DBDD5C985D5915DA5D1A115919D95CD0340902404333333333333E3BF0000000000000F9010740901411070040501600405405064090741402480A1B50
1001
ACAD
1000
AcDbSavedByObjectVersion
1070
     0
  0
ACAD_PROXY_OBJECT
  5
38
102
{ACAD_REACTORS
330
2A
102
}
330
2A
100
AcDbProxyObject
 90
      499
 91
      501
 93
      444
310
42D31A5B995C185D1D195C9B90E409028333333333333E3BF0000000000000FB010790141107004050750841D405064090741402483A0350
1001
ACAD
1000
AcDbSavedByObjectVersion
1070
     0
  0
ACAD_PROXY_OBJECT
  5
33
102
{ACAD_REACTORS
330
2A
102
}
330
2A
100
AcDbProxyObject
 90
      499
 91
      501
 93
      420
310
425499585B1A5CDD1A58D08409028333333333333E3BF0000000000000FB01079019070040501508421405064090741402480A1B40
1001
ACAD
1000
AcDbSavedByObjectVersion
1070
     0
  0
ACAD_PROXY_OBJECT
  5
37
102
{ACAD_REACTORS
330
2A
102
}
330
2A
100
AcDbProxyObject
 90
      499
 91
      501
 93
      412
310
41D51A1A58DAD95B90D409028333333333333E3BF0000000000000FB010790141107004050150C41D405064090741402480A0350
1001
ACAD
1000
AcDbSavedByObjectVersion
1070
     0
  0
XRECORD
  5
80
102
{ACAD_REACTORS
330
77
102
}
330
77
100
AcDbXrecord
 90
        0
  0
XRECORD
  5
96
102
{ACAD_REACTORS
330
77
102
}
330
77
100
AcDbXrecord
1000
DSTYLE
1002
{
1070
    41
 40
0.06
1070
   340
340
11
1070
   140
 40
0.0482483533954122
1002
}
  0
XRECORD
  5
81
102
{ACAD_REACTORS
330
77
102
}
330
77
100
AcDbXrecord
  1
{EB65D063-B3FD-4AF0-B739-68B991B81C3A}
  0
XRECORD
  5
7A
102
{ACAD_REACTORS
330
77
102
}
330
77
100
AcDbXrecord
  1

  0
XRECORD
  5
7F
102
{ACAD_REACTORS
330
77
102
}
330
77
100
AcDbXrecord
 90
        1
  0
XRECORD
  5
7C
102
{ACAD_REACTORS
330
77
102
}
330
77
100
AcDbXrecord
340
1A
  0
XRECORD
  5
7E
102
{ACAD_REACTORS
330
77
102
}
330
77
100
AcDbXrecord
 90
    10781
  0
XRECORD
  5
7D
102
{ACAD_REACTORS
330
77
102
}
330
77
100
AcDbXrecord
340
19
  0
XRECORD
  5
83
102
{ACAD_REACTORS
330
77
102
}
330
77
100
AcDbXrecord
 40
0.0
  0
XRECORD
  5
86
102
{ACAD_REACTORS
330
77
102
}
330
77
100
AcDbXrecord
340
0
  0
XRECORD
  5
8C
102
{ACAD_REACTORS
330
77
102
}
330
77
100
AcDbXrecord
 10
0.0
 20
0.0
 30
0.0
  0
XRECORD
  5
88
102
{ACAD_REACTORS
330
77
102
}
330
77
100
AcDbXrecord
 10
0.0
 20
0.0
 30
0.0
  0
XRECORD
  5
8B
102
{ACAD_REACTORS
330
77
102
}
330
77
100
AcDbXrecord
 10
0.0
 20
0.0
 30
0.0
  0
XRECORD
  5
89
102
{ACAD_REACTORS
330
77
102
}
330
77
100
AcDbXrecord
 10
0.0
 20
0.0
 30
0.0
  0
XRECORD
  5
8A
102
{ACAD_REACTORS
330
77
102
}
330
77
100
AcDbXrecord
 10
0.0
 20
0.0
 30
0.0
  0
XRECORD
  5
87
102
{ACAD_REACTORS
330
77
102
}
330
77
100
AcDbXrecord
 10
0.0
 20
0.0
 30
0.0
  0
XRECORD
  5
84
102
{ACAD_REACTORS
330
77
102
}
330
77
100
AcDbXrecord
340
0
  0
XRECORD
  5
85
102
{ACAD_REACTORS
330
77
102
}
330
77
100
AcDbXrecord
 70
     0
  0
XRECORD
  5
7B
102
{ACAD_REACTORS
330
77
102
}
330
77
100
AcDbXrecord
  1

  0
XRECORD
  5
78
102
{ACAD_REACTORS
330
77
102
}
330
77
100
AcDbXrecord
 90
        1
  0
XRECORD
  5
79
102
{ACAD_REACTORS
330
77
102
}
330
77
100
AcDbXrecord
 90
       70
  0
XRECORD
  5
8F
102
{ACAD_REACTORS
330
77
102
}
330
77
100
AcDbXrecord
340
0
  0
XRECORD
  5
95
102
{ACAD_REACTORS
330
77
102
}
330
77
100
AcDbXrecord
 10
0.0
 20
0.0
 30
0.0
  0
XRECORD
  5
91
102
{ACAD_REACTORS
330
77
102
}
330
77
100
AcDbXrecord
 10
0.0
 20
0.0
 30
0.0
  0
XRECORD
  5
94
102
{ACAD_REACTORS
330
77
102
}
330
77
100
AcDbXrecord
 10
0.0
 20
0.0
 30
0.0
  0
XRECORD
  5
92
102
{ACAD_REACTORS
330
77
102
}
330
77
100
AcDbXrecord
 10
0.0
 20
0.0
 30
0.0
  0
XRECORD
  5
93
102
{ACAD_REACTORS
330
77
102
}
330
77
100
AcDbXrecord
 10
0.0
 20
0.0
 30
0.0
  0
XRECORD
  5
90
102
{ACAD_REACTORS
330
77
102
}
330
77
100
AcDbXrecord
 10
0.0
 20
0.0
 30
0.0
  0
XRECORD
  5
8D
102
{ACAD_REACTORS
330
77
102
}
330
77
100
AcDbXrecord
340
0
  0
XRECORD
  5
8E
102
{ACAD_REACTORS
330
77
102
}
330
77
100
AcDbXrecord
 70
     0
  0
XRECORD
  5
82
102
{ACAD_REACTORS
330
77
102
}
330
77
100
AcDbXrecord
  1
{FAEB1C32-E019-11D5-929B-00C0DF256EC4}
  0
DICTIONARYVAR
  5
9A
102
{ACAD_REACTORS
330
97
102
}
330
97
100
DictionaryVariables
280
     0
  1
2
  0
DICTIONARYVAR
  5
9B
102
{ACAD_REACTORS
330
97
102
}
330
97
100
DictionaryVariables
280
     0
  1
1
  0
DICTIONARY
  5
9E
330
3D
100
AcDbDictionary
280
     1
  3
ACAD_XREC_ROUNDTRIP
360
9F
  0
DICTIONARY
  5
9C
330
3C
100
AcDbDictionary
280
     1
  3
ACAD_XREC_ROUNDTRIP
360
9D
  0
DICTIONARY
  5
A0
330
3E
100
AcDbDictionary
280
     1
  3
ACAD_XREC_ROUNDTRIP
360
A1
  0
XRECORD
  5
9F
102
{ACAD_REACTORS
330
9E
102
}
330
9E
100
AcDbXrecord
102
MATERIAL
148
0.0
149
0.0
149
0.0
 93
        0
 94
      127
282
     0
 72
     1
 77
     1
171
     1
175
     1
179
     1
273
     0
  0
XRECORD
  5
9D
102
{ACAD_REACTORS
330
9C
102
}
330
9C
100
AcDbXrecord
102
MATERIAL
148
0.0
149
0.0
149
0.0
 93
        0
 94
      127
282
     0
 72
     1
 77
     1
171
     1
175
     1
179
     1
273
     0
  0
XRECORD
  5
A1
102
{ACAD_REACTORS
330
A0
102
}
330
A0
100
AcDbXrecord
102
MATERIAL
148
0.0
149
0.0
149
0.0
 93
        0
 94
      127
282
     0
 72
     1
 77
     1
171
     1
175
     1
179
     1
273
     0
  0
ENDSEC
  0
EOF
